electric-guitar.co.uk
Find this site useful?
Please click here to vote for us at top100guitarsites.com

A Little Blues Riff

This is a fast paced, blues lick written by Chris which was submitted on 19-02-2003

Description of this Lick by Chris

It's fast but not really fast and easy so have fun with it!

The Tablature for this Lick


e---------------11------13b---11-----------
b-----11h13----------------------13-13-----
g--12--------------------------------------
d------------------------------------------
a------------------------------------------
e------------------------------------------  

e-------------11------11h13--11h13----11-13b-13b-13-
b-----11h13------13----------------13---------------
g--12-----------------------------------------------
d---------------------------------------------------
a---------------------------------------------------
e---------------------------------------------------