electric-guitar.co.uk
Find this site useful?
Please click here to vote for us at top100guitarsites.com

Soul Flava

This is a medium paced, other lick written by scorpionpicker which was submitted on 30-06-2003

Description of this Lick by scorpionpicker

\ = slide down. / = slide up. v = vibrato with wammy bar (not required). h = hammer on. p = pull off. Type of lick I like to play which is great for improvising when playing solo. when it's played smoothly, it gives off a jazzy, Hendrix-type vibe. Trills and most of the slides are preformed within the chord shape. lightly tremolo the chords for an even cooler effect. The last run which begins on the 13th fret is preformed very quickly, with a final slide to nothing. arppegiate the last chord allowing all strings to sustain while applying light tremolo with the bar(optional).

The Tablature for this Lick

e---------------------7\5---------------------------------

b--3------------------8\6--5h6p5--------------------------

g--4--------------7---7\5--------5------------------------

d--2-------5--7/9-----9\7----------7--5h7--5--5----5------

a--3---5/7------------7\5---------------------5h7--5------

e---------------------------------------------------------



----------------0----------------------------13-12--------

----4---------3-----6/8--8\6--------6----8---------13-12--

----3-------4-------5/7--7\5------5----7------------------

----2-----2---------6/8--8\6----6----8--------------------

----3---3-----------5/7--7\5--5----7----------------------

----------------------------------------------------------



--------------------------0v------------------------------

-----------------------4v---------------------------------

---13-12---------------3v---------------------------------

---------13-12---------2v---------------------------------

----------------13\----3v---------------------------------

----------------------------------------------------------