electric-guitar.co.uk
Find this site useful?
Please click here to vote for us at top100guitarsites.com

Spirit Crusher

This is a medium paced, metal lick written by Siberianwolf which was submitted on 30-03-2004

Description of this Lick by Siberianwolf

Good Luck!

The Tablature for this Lick

Riff A.1 (after bass intro)(Play 4 Times Total)
|--------------------|
|--------------------|Gtrs I
|--------------------|  & II
|-------8--8/9-------|
|----6----------7----|
|-4----------------5-|
  .  .


Riff A.2 (Play 4 Times Total)
|------------------------|
|------------------------|
|-------10--10-/11-------|Gtr I
|----8--------------9----|
|-6--------------------7-|
|------------------------|
|                        |
|------------------------|
|------------------------|
|------------------------|Gtr II
|--------8---8--/9-------|
|----6--------------7----|
|-4--------------------5-|
  .  .
Repeat Riff A.1
Repeat Riff A.2

Riff B.1 (Play 2 Times Total)
|----------------------------------------------------|
|----------------------------------------------------|Gtrs I
|----------------------------------------------------|  & II
|--------------------9-----7-------------------------|
|-7-----9-----10-----------------9-----10-----9------|
|---000---000----000---000---000---000----000---000--|
    ...   ...    ...   ...   ...   ...    ...   ...

|----------------------------------------------------|
|----------------------------------------------------|Gtrs I
|----------------------------------------------------|  & II
|-7-----9-----11-----7-----a.h.----------------------|
|-5-----7------9-----5------7~-----------------------|
|---000---000----000---000-------0-000-0-0-0-000-0---|
    ...   ...    ...   ...       . ... . . . ... .

Riff B.2
|--------------------------|
|--------------------------|
|--------------------------|Gtrs I
|--------------------------|  & II
|-7-----9-----10-----9-----|
|---666---666----666---666-|
    ...   ...    ...   ...


Riff C.1
|---------------------------------------|
|---------------------------------------|Gtrs I
|---------------------------------------|  & II
|---------------------------------------|
|-7--------9--------10--------9---------|
|---777777---777777----777777---777777--|
    ......   ......    ......   ......

Riff C.2
|---------------------------------------|
|---------------------------------------|Gtrs
|---------------------------------------|I&II
|---------------------------------------|
|-7--------9--------10--------9---------|
|---888888---888888----888888---888888--|
    ......   ......    ......   ......


|------------------------------------------------------------------|
|-------------------------------------------------------------/\---|
|-------------------------------------------------------------/\---|Gtr I
|--------------------------------------------------------9~~--/\---|
|-9--------------12--------------10--------------7-----------------|
|---101010101010----101010101010----101010101010---787878----------|
|                                                                  |
|------------------------------------------------------------------|
|--------------------------------------------------------7~~--/\---|
|-------------------------------------------------------------/\---|Gtr II
|-------------------------------------------------------------/\---|
|-9--------------12--------------10--------------7-----------------|
|---101010101010----101010101010----101010101010---787878----------|
    ......   ......   ......   ......


Riff D.1  (Play A Total Of 2 Times)
|--------------------------------------|
|--------------------------------------|
|----5------------------5--------------|Gtrs I
|-2--5--5-5/7-7~--2-2---5---2-2---a.h.-|  & II
|-2--3--5-5/7-7~--2-2---3---2-2---5~---|
|-0-----3-3/5-5~--0-0-0-----0-0-0------|
                      .         .

|--0-----------------------------------|
|----0---------------------------------|
|------5------------------5---------7--|Gtrs I
|-2----5--5-5/7-7~--2-2---5---2-2---7--|  & II
|-2----3--5-5/7-7~--2-2---3---2-2---5--|
|-0-------3-3/5-5~--0-0-0-----0-0-0----|
                        .         .

Riff D.2
|-----------------|
|-----------------|
|----5------------|Gtrs I
|-2--5--5-5/7-7~--|  & II
|-2--3--5-5/7-7~--|
|-0-----3-3/5-5~--|


5 second bass fill played here


Riff E (Play A Total of 4 Times)
|---------------------6---------5-------|
|---------------------------------------|
|-----9-9/10--------8---8-----7---7---7-|Gtr I
|---7--------8----6-------6-5-------5---|
|-5------------6------------------------|
|---------------------------------------|
| .                                     |
|---------------------------------------|
|---------------------------------------|
|---------------------8---------7-------|Gtr II
|-----7-7/8---------6---6-----5---5---5-|
|---5--------6----4-------4-3-------3---|
|-3------------4------------------------|
  .


Riff F
|------------------------------------|
|------------------------------------|
|------------------9---7-------------|Gtrs I
|-----7---9---10-----------9---10----|  & II
|-0-0---0---0----0---0---0---0----0--|
|------------------------------------|
  . .   .   .    .   .   .   .    .

|------------------------------------|
|------------------------------------|
|------------------10---9------------|Gtrs I
|-----7---9---10------------9---10~--|  & II
|-0-0---0---0----0----0---0---0------|
|------------------------------------|
  . .   .    .    .     .   .   .


Riff G
|------------------------------------|
|------------------------------------|
|-------------------12---10---9------|Gtrs I
|-----9---10---12-----------------10-|  & II
|-8-8---8----8----8----8----8---8----|
|------------------------------------|
  . .   .    .    .    .    .   .

|------------------------------------|
|------------------------------------|
|-------------------10---9-----------|Gtrs I
|-----9---10---12------------9---10~-|  & II
|-8-8---8----8----8----8---8---8-----|
|------------------------------------|
  . .   .    .    .    .   .   .


Riff H (Both Gtrs)  (Play A Total Of 2 Times)
|-------------------------------------------------------------------------|
|-------------------------------------------------------------------------|
|-----------h---------------h------------------h------------------p-------|
|----------7-9-9~----------9-10-10~----------10-12-12~----------12-10-10~-|
|-00000000--------00000000----------00000000-----------00000000-----------|
|-------------------------------------------------------------------------|
  ........        ........          ........           ........

|-------------------------------------------------------------------------|
|-------------------------------------------------h------------------p----|
|-----------h------------------h----------------10-12-12~----------10-9-9~|
|----------9-10-10~----------10-12-12~------------------------------------|
|-88888888----------88888888-----------88888888-----------88888888--------|
|-------------------------------------------------------------------------|
  ........          ........           ........           ........


Riff I (Solo 1) (Play A Total Of 4 Times)
|--------------------------------------------------------------|
|--------------------------------------------------------------|
|----------10------------------12----------9----------9------9-|Gtr II
|-----------8----------10------10----------7----------7------7-|
|-00000000----00000000--8-0000----00000000---00000000---0000---|
|--------------------------------------------------------------|
  ........    ........    ....    ........   ........   ....


Riff J: (Solo 2) (Play A Total Of 2 Times)
|--------------|
|--------------|
|--6-----2-----|Gtr II
|--6--4--2--2--|
|--4--4--0--2--|
|-----2-----0--|



Riff K.1 (Play A Total Of 2 Times)
|-----------------------------------------------|
|-----------------------------------------------|Gtrs
|-----------------------------------------------|I&II
|---------9-------------10--------------12------|
|-------7---7~--------8----8~--------10----10~--|
|-0-000--------0-000----------0-000-------------|
  . ...        . ...          . ...


|-------------------------------|
|-------------------------------|Gtrs
|-------------------------------|I&II
|---------10----999---9-9----9\-|
|-------8----8~-777---7-7----7\-|
|-0-000---------000-0-----00----|
  . ...         ... .     ..


Riff K.2
|-----------------------------------------------|
|-----------------------------------------------|Gtr I
|-----------------------------------------------|
|---------9--------------10--------------12-----|
|-------7---7~---------8----8~--------10----10~-|
|-0-000---------0-000----------0-000------------|
| . ...         . ...          . ...            |
|                                               |
|-----------------------------------------------|
|-----------------------------------------------|Gtr II
|---------11-------------12--------------14-----|
|-------9----9~-------10----10~-------12----12~-|
|-----------------------------------------------|
|-0-000---------0-000----------0-000------------|
  . ...         . ...          . ...


|-------------------------------|
|-------------------------------|Gtr I
|-------------------------------|
|---------10----999---9-9----9\-|
|-------8----8~-777---7-7----7\-|
|-0-000---------000-0-----00----|
| . ...         ... .     ..    |
|                               |
|-------------------------------|
|-------------------------------|Gtr II
|---------12--------------------|
|-------10--10~-999---9-9----9\-|
|---------------777---7-7----7\-|
|-0-000---------000-0-----00----|
  . ...         ... .     ..


|-----------------------------------------------|
|-----------------------------------------------|Gtr I
|-----------------------------------------------|
|---------9--------------10--------------12-----|
|-------7---7~---------8----8~--------10----10~-|
|-0-000---------0-000----------0-000------------|
| . ...         . ...          . ...            |
|                                               |
|-----------------------------------------------|
|-----------------------------------------------|Gtr II
|---------11-------------12--------------14-----|
|-------9----9~-------10----10~-------12----12\-|
|-----------------------------------------------|
|-0-000---------0-000----------0-000------------|
  . ...         . ...          . ...

Repeat Riff A.1  (4 Times Total)
Repeat Riff A.2  (4 Times Total)
Repeat Riff A.1  (4 Times Total)
Repeat Riff A.2  (4 Times Total)
Repeat Riff B.1  (2 Times Total)
Repeat Riff B.2  (1 Time  Total)
Repeat Riff C    (1 Time  Total)
Repeat Riff D.1  (4 Times Total)
Repeat Riff D.2  (1 Time  Total)
Repeat Riff E    (4 Times Total)
Repeat Riff F    (1 Time  Total)
Repeat Riff G    (1 Time  Total)
Repeat Riff H    (2 Times Total)
         *(The Last Time Riff H is played,)
          (the last note becomes an artificial harmonic)